ISO-10303-21;
HEADER;
FILE_DESCRIPTION(('CATIA V5 STEP Exchange'),'2;1');

FILE_NAME('C:\\Users\\Astroboy\\Desktop\\RIDIX\\30_SCORRIMENTI_ISO\\20_BOCCOLE\\RDGS300\\STEP\\RDGS300.60140.stp','2017-03-17T22:46:23+00:00',('none'),('none'),'CATIA Version 5 Release 19 GA (IN-10)','CATIA V5 STEP AP203','none');

FILE_SCHEMA(('CONFIG_CONTROL_DESIGN'));

ENDSEC;
/* file written by CATIA V5R19 */
DATA;
#5=PRODUCT('RDGS300.60140','','BOCCOLA AUTOLUBRIFICANTE\X2\000D\X0\\X2\000A\X0\NORMATIVE AUTOMOTIVE',(#2)) ;
#1=APPLICATION_CONTEXT('configuration controlled 3D design of mechanical parts and assemblies') ;
#14=PRODUCT_DEFINITION('',' ',#6,#3) ;
#16=SECURITY_CLASSIFICATION(' ',' ',#15) ;
#15=SECURITY_CLASSIFICATION_LEVEL('unclassified') ;
#47=CARTESIAN_POINT(' ',(0.,0.,0.)) ;
#51=CARTESIAN_POINT('Line Origine',(0.,0.,0.)) ;
#55=CARTESIAN_POINT('Limit',(0.,0.,0.)) ;
#56=CARTESIAN_POINT('Limit',(20.,0.,0.)) ;
#63=CARTESIAN_POINT('Line Origine',(0.,0.,0.)) ;
#67=CARTESIAN_POINT('Limit',(0.,0.,0.)) ;
#68=CARTESIAN_POINT('Limit',(0.,20.,0.)) ;
#72=CARTESIAN_POINT('Line Origine',(0.,0.,0.)) ;
#76=CARTESIAN_POINT('Limit',(0.,0.,0.)) ;
#77=CARTESIAN_POINT('Limit',(0.,0.,20.)) ;
#81=CARTESIAN_POINT('Punto.1',(0.,0.,0.)) ;
#83=CARTESIAN_POINT('Axis2P3D Location',(0.,0.,-70.)) ;
#88=CARTESIAN_POINT('Axis2P3D Location',(0.,0.,-4.75)) ;
#92=CARTESIAN_POINT('Vertex',(-29.2234993109,15.9648704355,-4.75)) ;
#94=CARTESIAN_POINT('Vertex',(29.2234993109,-15.9648704355,-4.75)) ;
#97=CARTESIAN_POINT('Line Origine',(-29.2234993109,15.9648704355,-4.15)) ;
#101=CARTESIAN_POINT('Vertex',(-29.2234993109,15.9648704355,-3.55)) ;
#104=CARTESIAN_POINT('Axis2P3D Location',(0.,0.,-3.55)) ;
#108=CARTESIAN_POINT('Vertex',(29.2234993109,-15.9648704355,-3.55)) ;
#111=CARTESIAN_POINT('Line Origine',(29.2234993109,-15.9648704355,-4.15)) ;
#123=CARTESIAN_POINT('Axis2P3D Location',(0.,0.,-4.75)) ;
#128=CARTESIAN_POINT('Axis2P3D Location',(0.,0.,-3.55)) ;
#140=CARTESIAN_POINT('Axis2P3D Location',(0.,0.,-70.)) ;
#145=CARTESIAN_POINT('Axis2P3D Location',(0.,0.,0.)) ;
#149=CARTESIAN_POINT('Vertex',(-26.3274768567,14.3827661581,0.)) ;
#151=CARTESIAN_POINT('Vertex',(26.3274768567,-14.3827661581,0.)) ;
#154=CARTESIAN_POINT('Line Origine',(-26.3274768567,14.3827661581,-70.)) ;
#158=CARTESIAN_POINT('Vertex',(-26.3274768567,14.3827661581,-140.)) ;
#161=CARTESIAN_POINT('Axis2P3D Location',(0.,0.,-140.)) ;
#165=CARTESIAN_POINT('Vertex',(26.3274768567,-14.3827661581,-140.)) ;
#168=CARTESIAN_POINT('Line Origine',(26.3274768567,-14.3827661581,-70.)) ;
#180=CARTESIAN_POINT('Axis2P3D Location',(0.,0.,0.)) ;
#185=CARTESIAN_POINT('Axis2P3D Location',(0.,0.,-140.)) ;
#197=CARTESIAN_POINT('Axis2P3D Location',(-33.3,0.,-4.75)) ;
#202=CARTESIAN_POINT('Axis2P3D Location',(0.,0.,-4.75)) ;
#206=CARTESIAN_POINT('Vertex',(-29.8378071043,16.3004683125,-4.75)) ;
#208=CARTESIAN_POINT('Vertex',(29.8378071043,-16.3004683125,-4.75)) ;
#211=CARTESIAN_POINT('Axis2P3D Location',(0.,0.,-4.75)) ;
#225=CARTESIAN_POINT('Axis2P3D Location',(-34.,0.,-3.55)) ;
#230=CARTESIAN_POINT('Axis2P3D Location',(0.,0.,-3.55)) ;
#234=CARTESIAN_POINT('Vertex',(29.8378071043,-16.3004683125,-3.55)) ;
#236=CARTESIAN_POINT('Vertex',(-29.8378071043,16.3004683125,-3.55)) ;
#239=CARTESIAN_POINT('Axis2P3D Location',(0.,0.,-3.55)) ;
#253=CARTESIAN_POINT('Axis2P3D Location',(0.,0.,-70.)) ;
#258=CARTESIAN_POINT('Line Origine',(29.8378071043,-16.3004683125,-70.)) ;
#262=CARTESIAN_POINT('Vertex',(29.8378071043,-16.3004683125,-1.)) ;
#265=CARTESIAN_POINT('Line Origine',(-29.8378071043,16.3004683125,-70.)) ;
#269=CARTESIAN_POINT('Vertex',(-29.8378071043,16.3004683125,-1.)) ;
#272=CARTESIAN_POINT('Axis2P3D Location',(0.,0.,-1.)) ;
#284=CARTESIAN_POINT('Axis2P3D Location',(0.,0.,-1.)) ;
#296=CARTESIAN_POINT('Axis2P3D Location',(-30.,0.,0.)) ;
#301=CARTESIAN_POINT('Axis2P3D Location',(7.1054273576E-015,0.,0.)) ;
#305=CARTESIAN_POINT('Vertex',(-28.9602245424,15.8210427739,0.)) ;
#307=CARTESIAN_POINT('Vertex',(28.9602246552,-15.8210425674,0.)) ;
#310=CARTESIAN_POINT('Axis2P3D Location',(-1.06581410364E-014,7.1054273576E-015,0.)) ;
#324=CARTESIAN_POINT('Axis2P3D Location',(-3.37507799486E-014,-2.45137243837E-013,33.)) ;
#329=CARTESIAN_POINT('Line Origine',(29.3990161361,-16.0607549707,-0.5)) ;
#334=CARTESIAN_POINT('Line Origine',(-29.3990158233,16.0607555432,-0.5)) ;
#346=CARTESIAN_POINT('Axis2P3D Location',(1.24344978758E-013,1.42108547152E-014,33.)) ;
#358=CARTESIAN_POINT('Line Origine',(-29.8378071043,16.3004683125,-70.)) ;
#362=CARTESIAN_POINT('Vertex',(-29.8378071043,16.3004683125,-139.)) ;
#365=CARTESIAN_POINT('Line Origine',(29.8378071043,-16.3004683125,-70.)) ;
#369=CARTESIAN_POINT('Vertex',(29.8378071043,-16.3004683125,-139.)) ;
#372=CARTESIAN_POINT('Axis2P3D Location',(0.,0.,-139.)) ;
#384=CARTESIAN_POINT('Axis2P3D Location',(0.,0.,-139.)) ;
#396=CARTESIAN_POINT('Axis2P3D Location',(-34.,0.,-140.)) ;
#401=CARTESIAN_POINT('Axis2P3D Location',(0.,-7.1054273576E-015,-140.)) ;
#405=CARTESIAN_POINT('Vertex',(28.9602246552,-15.8210425674,-140.)) ;
#407=CARTESIAN_POINT('Vertex',(-28.9602245424,15.8210427739,-140.)) ;
#410=CARTESIAN_POINT('Axis2P3D Location',(7.1054273576E-015,-8.881784197E-016,-140.)) ;
#424=CARTESIAN_POINT('Axis2P3D Location',(-6.03961325396E-014,4.83169060317E-013,-173.)) ;
#429=CARTESIAN_POINT('Line Origine',(29.3990158233,-16.0607555432,-139.5)) ;
#434=CARTESIAN_POINT('Line Origine',(-29.3990158233,16.0607555432,-139.5)) ;
#446=CARTESIAN_POINT('Axis2P3D Location',(-3.58824081559E-013,1.20792265079E-013,-173.)) ;
#462=CARTESIAN_POINT('Axis2P3D Location',(0.,0.,-4.25)) ;
#467=CARTESIAN_POINT('Line Origine',(-1.,35.1857925873,-4.25)) ;
#471=CARTESIAN_POINT('Vertex',(-1.,35.1857925873,-4.75)) ;
#473=CARTESIAN_POINT('Vertex',(-1.,35.1857925873,-3.75)) ;
#476=CARTESIAN_POINT('Axis2P3D Location',(0.,0.,-4.75)) ;
#480=CARTESIAN_POINT('Vertex',(1.,35.1857925873,-4.75)) ;
#483=CARTESIAN_POINT('Line Origine',(1.,35.1857925873,-4.25)) ;
#487=CARTESIAN_POINT('Vertex',(1.,35.1857925873,-3.75)) ;
#490=CARTESIAN_POINT('Axis2P3D Location',(0.,0.,-3.75)) ;
#502=CARTESIAN_POINT('Axis2P3D Location',(1.,33.2849815983,-4.75)) ;
#507=CARTESIAN_POINT('Line Origine',(1.,34.2353870928,-4.75)) ;
#511=CARTESIAN_POINT('Vertex',(1.,33.2849815983,-4.75)) ;
#514=CARTESIAN_POINT('Line Origine',(1.,33.2849815983,-4.25)) ;
#518=CARTESIAN_POINT('Vertex',(1.,33.2849815983,-3.75)) ;
#521=CARTESIAN_POINT('Line Origine',(1.,34.2353870928,-3.75)) ;
#533=CARTESIAN_POINT('Axis2P3D Location',(0.,0.,-4.25)) ;
#538=CARTESIAN_POINT('Axis2P3D Location',(0.,0.,-4.75)) ;
#542=CARTESIAN_POINT('Vertex',(-1.,33.2849815983,-4.75)) ;
#545=CARTESIAN_POINT('Line Origine',(-1.,33.2849815983,-4.25)) ;
#549=CARTESIAN_POINT('Vertex',(-1.,33.2849815983,-3.75)) ;
#552=CARTESIAN_POINT('Axis2P3D Location',(0.,0.,-3.75)) ;
#564=CARTESIAN_POINT('Axis2P3D Location',(-1.,35.1857925873,-4.75)) ;
#569=CARTESIAN_POINT('Line Origine',(-1.,34.2353870928,-4.75)) ;
#574=CARTESIAN_POINT('Line Origine',(-1.,34.2353870928,-3.75)) ;
#586=CARTESIAN_POINT('Axis2P3D Location',(0.,0.,-4.75)) ;
#598=CARTESIAN_POINT('Axis2P3D Location',(0.,0.,-3.75)) ;
#52=DIRECTION('Vector Direction',(1.,0.,0.)) ;
#64=DIRECTION('Vector Direction',(0.,1.,0.)) ;
#73=DIRECTION('Vector Direction',(0.,0.,1.)) ;
#84=DIRECTION('Axis2P3D Direction',(0.,0.,-1.)) ;
#85=DIRECTION('Axis2P3D XDirection',(-0.87758256189,0.479425538604,-0.)) ;
#89=DIRECTION('Axis2P3D Direction',(0.,0.,-1.)) ;
#98=DIRECTION('Vector Direction',(0.,0.,-1.)) ;
#105=DIRECTION('Axis2P3D Direction',(0.,0.,-1.)) ;
#112=DIRECTION('Vector Direction',(0.,0.,-1.)) ;
#124=DIRECTION('Axis2P3D Direction',(0.,0.,-1.)) ;
#129=DIRECTION('Axis2P3D Direction',(0.,0.,-1.)) ;
#141=DIRECTION('Axis2P3D Direction',(0.,0.,-1.)) ;
#142=DIRECTION('Axis2P3D XDirection',(-0.87758256189,0.479425538604,-0.)) ;
#146=DIRECTION('Axis2P3D Direction',(0.,0.,-1.)) ;
#155=DIRECTION('Vector Direction',(0.,0.,-1.)) ;
#162=DIRECTION('Axis2P3D Direction',(0.,0.,-1.)) ;
#169=DIRECTION('Vector Direction',(0.,0.,-1.)) ;
#181=DIRECTION('Axis2P3D Direction',(0.,0.,-1.)) ;
#186=DIRECTION('Axis2P3D Direction',(0.,0.,-1.)) ;
#198=DIRECTION('Axis2P3D Direction',(0.,0.,-1.)) ;
#199=DIRECTION('Axis2P3D XDirection',(1.,0.,0.)) ;
#203=DIRECTION('Axis2P3D Direction',(0.,0.,-1.)) ;
#212=DIRECTION('Axis2P3D Direction',(0.,0.,-1.)) ;
#226=DIRECTION('Axis2P3D Direction',(0.,0.,-1.)) ;
#227=DIRECTION('Axis2P3D XDirection',(1.,0.,0.)) ;
#231=DIRECTION('Axis2P3D Direction',(0.,0.,-1.)) ;
#240=DIRECTION('Axis2P3D Direction',(0.,0.,-1.)) ;
#254=DIRECTION('Axis2P3D Direction',(0.,0.,-1.)) ;
#255=DIRECTION('Axis2P3D XDirection',(-0.87758256189,0.479425538604,-0.)) ;
#259=DIRECTION('Vector Direction',(0.,0.,-1.)) ;
#266=DIRECTION('Vector Direction',(0.,0.,-1.)) ;
#273=DIRECTION('Axis2P3D Direction',(0.,0.,-1.)) ;
#285=DIRECTION('Axis2P3D Direction',(0.,0.,-1.)) ;
#297=DIRECTION('Axis2P3D Direction',(0.,0.,-1.)) ;
#298=DIRECTION('Axis2P3D XDirection',(1.,0.,0.)) ;
#302=DIRECTION('Axis2P3D Direction',(0.,0.,-1.)) ;
#311=DIRECTION('Axis2P3D Direction',(0.,0.,-1.)) ;
#325=DIRECTION('Axis2P3D Direction',(8.881784197E-016,7.1054273576E-015,-1.)) ;
#326=DIRECTION('Axis2P3D XDirection',(0.955567130528,-0.294773572517,-1.18538011437E-015)) ;
#330=DIRECTION('Vector Direction',(0.620544587166,-0.339005037336,-0.707106781187)) ;
#335=DIRECTION('Vector Direction',(-0.620544580564,0.339005049421,-0.707106781187)) ;
#347=DIRECTION('Axis2P3D Direction',(-3.5527136788E-015,0.,-1.)) ;
#348=DIRECTION('Axis2P3D XDirection',(-0.87758256189,0.479425538604,3.16101363832E-015)) ;
#359=DIRECTION('Vector Direction',(0.,0.,-1.)) ;
#366=DIRECTION('Vector Direction',(0.,0.,-1.)) ;
#373=DIRECTION('Axis2P3D Direction',(0.,0.,-1.)) ;
#385=DIRECTION('Axis2P3D Direction',(0.,0.,-1.)) ;
#397=DIRECTION('Axis2P3D Direction',(0.,0.,-1.)) ;
#398=DIRECTION('Axis2P3D XDirection',(1.,0.,0.)) ;
#402=DIRECTION('Axis2P3D Direction',(0.,0.,-1.)) ;
#411=DIRECTION('Axis2P3D Direction',(0.,0.,-1.)) ;
#425=DIRECTION('Axis2P3D Direction',(1.7763568394E-015,-1.42108547152E-014,1.)) ;
#426=DIRECTION('Axis2P3D XDirection',(0.976182467674,-0.21695112308,-4.87322935907E-015)) ;
#430=DIRECTION('Vector Direction',(0.620544580564,-0.339005049421,0.707106781187)) ;
#435=DIRECTION('Vector Direction',(-0.620544580564,0.339005049421,0.707106781187)) ;
#447=DIRECTION('Axis2P3D Direction',(1.06581410364E-014,-3.5527136788E-015,1.)) ;
#448=DIRECTION('Axis2P3D XDirection',(-0.87758256189,0.479425538604,1.10635477341E-014)) ;
#463=DIRECTION('Axis2P3D Direction',(0.,0.,1.)) ;
#464=DIRECTION('Axis2P3D XDirection',(-0.0284090909091,0.999596380322,0.)) ;
#468=DIRECTION('Vector Direction',(0.,0.,1.)) ;
#477=DIRECTION('Axis2P3D Direction',(0.,0.,1.)) ;
#484=DIRECTION('Vector Direction',(0.,0.,1.)) ;
#491=DIRECTION('Axis2P3D Direction',(0.,0.,1.)) ;
#503=DIRECTION('Axis2P3D Direction',(1.,0.,0.)) ;
#504=DIRECTION('Axis2P3D XDirection',(0.,1.,0.)) ;
#508=DIRECTION('Vector Direction',(0.,1.,0.)) ;
#515=DIRECTION('Vector Direction',(0.,0.,1.)) ;
#522=DIRECTION('Vector Direction',(0.,1.,0.)) ;
#534=DIRECTION('Axis2P3D Direction',(0.,0.,1.)) ;
#535=DIRECTION('Axis2P3D XDirection',(-0.03003003003,0.999548996946,0.)) ;
#539=DIRECTION('Axis2P3D Direction',(0.,0.,1.)) ;
#546=DIRECTION('Vector Direction',(0.,0.,1.)) ;
#553=DIRECTION('Axis2P3D Direction',(0.,0.,1.)) ;
#565=DIRECTION('Axis2P3D Direction',(-1.,0.,0.)) ;
#566=DIRECTION('Axis2P3D XDirection',(0.,-1.,0.)) ;
#570=DIRECTION('Vector Direction',(0.,-1.,0.)) ;
#575=DIRECTION('Vector Direction',(0.,-1.,0.)) ;
#587=DIRECTION('Axis2P3D Direction',(0.,0.,1.)) ;
#588=DIRECTION('Axis2P3D XDirection',(1.,0.,0.)) ;
#599=DIRECTION('Axis2P3D Direction',(0.,0.,1.)) ;
#600=DIRECTION('Axis2P3D XDirection',(1.,0.,0.)) ;
#48=AXIS2_PLACEMENT_3D(' ',#47,$,$) ;
#86=AXIS2_PLACEMENT_3D('Cylinder Axis2P3D',#83,#84,#85) ;
#90=AXIS2_PLACEMENT_3D('Circle Axis2P3D',#88,#89,$) ;
#106=AXIS2_PLACEMENT_3D('Circle Axis2P3D',#104,#105,$) ;
#125=AXIS2_PLACEMENT_3D('Circle Axis2P3D',#123,#124,$) ;
#130=AXIS2_PLACEMENT_3D('Circle Axis2P3D',#128,#129,$) ;
#143=AXIS2_PLACEMENT_3D('Cylinder Axis2P3D',#140,#141,#142) ;
#147=AXIS2_PLACEMENT_3D('Circle Axis2P3D',#145,#146,$) ;
#163=AXIS2_PLACEMENT_3D('Circle Axis2P3D',#161,#162,$) ;
#182=AXIS2_PLACEMENT_3D('Circle Axis2P3D',#180,#181,$) ;
#187=AXIS2_PLACEMENT_3D('Circle Axis2P3D',#185,#186,$) ;
#200=AXIS2_PLACEMENT_3D('Plane Axis2P3D',#197,#198,#199) ;
#204=AXIS2_PLACEMENT_3D('Circle Axis2P3D',#202,#203,$) ;
#213=AXIS2_PLACEMENT_3D('Circle Axis2P3D',#211,#212,$) ;
#228=AXIS2_PLACEMENT_3D('Plane Axis2P3D',#225,#226,#227) ;
#232=AXIS2_PLACEMENT_3D('Circle Axis2P3D',#230,#231,$) ;
#241=AXIS2_PLACEMENT_3D('Circle Axis2P3D',#239,#240,$) ;
#256=AXIS2_PLACEMENT_3D('Cylinder Axis2P3D',#253,#254,#255) ;
#274=AXIS2_PLACEMENT_3D('Circle Axis2P3D',#272,#273,$) ;
#286=AXIS2_PLACEMENT_3D('Circle Axis2P3D',#284,#285,$) ;
#299=AXIS2_PLACEMENT_3D('Plane Axis2P3D',#296,#297,#298) ;
#303=AXIS2_PLACEMENT_3D('Circle Axis2P3D',#301,#302,$) ;
#312=AXIS2_PLACEMENT_3D('Circle Axis2P3D',#310,#311,$) ;
#327=AXIS2_PLACEMENT_3D('Cone Axis2P3D',#324,#325,#326) ;
#349=AXIS2_PLACEMENT_3D('Cone Axis2P3D',#346,#347,#348) ;
#374=AXIS2_PLACEMENT_3D('Circle Axis2P3D',#372,#373,$) ;
#386=AXIS2_PLACEMENT_3D('Circle Axis2P3D',#384,#385,$) ;
#399=AXIS2_PLACEMENT_3D('Plane Axis2P3D',#396,#397,#398) ;
#403=AXIS2_PLACEMENT_3D('Circle Axis2P3D',#401,#402,$) ;
#412=AXIS2_PLACEMENT_3D('Circle Axis2P3D',#410,#411,$) ;
#427=AXIS2_PLACEMENT_3D('Cone Axis2P3D',#424,#425,#426) ;
#449=AXIS2_PLACEMENT_3D('Cone Axis2P3D',#446,#447,#448) ;
#465=AXIS2_PLACEMENT_3D('Cylinder Axis2P3D',#462,#463,#464) ;
#478=AXIS2_PLACEMENT_3D('Circle Axis2P3D',#476,#477,$) ;
#492=AXIS2_PLACEMENT_3D('Circle Axis2P3D',#490,#491,$) ;
#505=AXIS2_PLACEMENT_3D('Plane Axis2P3D',#502,#503,#504) ;
#536=AXIS2_PLACEMENT_3D('Cylinder Axis2P3D',#533,#534,#535) ;
#540=AXIS2_PLACEMENT_3D('Circle Axis2P3D',#538,#539,$) ;
#554=AXIS2_PLACEMENT_3D('Circle Axis2P3D',#552,#553,$) ;
#567=AXIS2_PLACEMENT_3D('Plane Axis2P3D',#564,#565,#566) ;
#589=AXIS2_PLACEMENT_3D('Plane Axis2P3D',#586,#587,#588) ;
#601=AXIS2_PLACEMENT_3D('Plane Axis2P3D',#598,#599,#600) ;
#40=PRODUCT_DEFINITION_SHAPE(' ',' ',#14) ;
#59=COMPOSITE_CURVE('Linea.1',(#58),.U.) ;
#71=COMPOSITE_CURVE('Linea.2',(#70),.U.) ;
#80=COMPOSITE_CURVE('Linea.3',(#79),.U.) ;
#58=COMPOSITE_CURVE_SEGMENT(.DISCONTINUOUS.,.T.,#57) ;
#70=COMPOSITE_CURVE_SEGMENT(.DISCONTINUOUS.,.T.,#69) ;
#79=COMPOSITE_CURVE_SEGMENT(.DISCONTINUOUS.,.T.,#78) ;
#31=APPROVAL_PERSON_ORGANIZATION(#25,#21,#19) ;
#25=PERSON_AND_ORGANIZATION(#22,#23) ;
#22=PERSON(' ',' ',' ',$,$,$) ;
#23=ORGANIZATION(' ',' ',' ') ;
#21=APPROVAL(#20,' ') ;
#20=APPROVAL_STATUS('not_yet_approved') ;
#19=APPROVAL_ROLE('APPROVER') ;
#13=DATE_AND_TIME(#11,#12) ;
#12=LOCAL_TIME(23,46,23.,#10) ;
#10=COORDINATED_UNIVERSAL_TIME_OFFSET(0,0,.AHEAD.) ;
#117=ORIENTED_EDGE('',*,*,#96,.F.) ;
#118=ORIENTED_EDGE('',*,*,#103,.T.) ;
#119=ORIENTED_EDGE('',*,*,#110,.T.) ;
#120=ORIENTED_EDGE('',*,*,#115,.F.) ;
#134=ORIENTED_EDGE('',*,*,#127,.F.) ;
#135=ORIENTED_EDGE('',*,*,#115,.T.) ;
#136=ORIENTED_EDGE('',*,*,#132,.T.) ;
#137=ORIENTED_EDGE('',*,*,#103,.F.) ;
#174=ORIENTED_EDGE('',*,*,#153,.F.) ;
#175=ORIENTED_EDGE('',*,*,#160,.T.) ;
#176=ORIENTED_EDGE('',*,*,#167,.T.) ;
#177=ORIENTED_EDGE('',*,*,#172,.F.) ;
#191=ORIENTED_EDGE('',*,*,#184,.F.) ;
#192=ORIENTED_EDGE('',*,*,#172,.T.) ;
#193=ORIENTED_EDGE('',*,*,#189,.T.) ;
#194=ORIENTED_EDGE('',*,*,#160,.F.) ;
#217=ORIENTED_EDGE('',*,*,#210,.F.) ;
#218=ORIENTED_EDGE('',*,*,#215,.F.) ;
#221=ORIENTED_EDGE('',*,*,#127,.T.) ;
#222=ORIENTED_EDGE('',*,*,#96,.T.) ;
#245=ORIENTED_EDGE('',*,*,#238,.T.) ;
#246=ORIENTED_EDGE('',*,*,#243,.T.) ;
#249=ORIENTED_EDGE('',*,*,#110,.F.) ;
#250=ORIENTED_EDGE('',*,*,#132,.F.) ;
#278=ORIENTED_EDGE('',*,*,#264,.F.) ;
#279=ORIENTED_EDGE('',*,*,#243,.F.) ;
#280=ORIENTED_EDGE('',*,*,#271,.T.) ;
#281=ORIENTED_EDGE('',*,*,#276,.T.) ;
#290=ORIENTED_EDGE('',*,*,#271,.F.) ;
#291=ORIENTED_EDGE('',*,*,#238,.F.) ;
#292=ORIENTED_EDGE('',*,*,#264,.T.) ;
#293=ORIENTED_EDGE('',*,*,#288,.T.) ;
#316=ORIENTED_EDGE('',*,*,#309,.F.) ;
#317=ORIENTED_EDGE('',*,*,#314,.F.) ;
#320=ORIENTED_EDGE('',*,*,#184,.T.) ;
#321=ORIENTED_EDGE('',*,*,#153,.T.) ;
#340=ORIENTED_EDGE('',*,*,#333,.T.) ;
#341=ORIENTED_EDGE('',*,*,#314,.T.) ;
#342=ORIENTED_EDGE('',*,*,#338,.F.) ;
#343=ORIENTED_EDGE('',*,*,#288,.F.) ;
#352=ORIENTED_EDGE('',*,*,#338,.T.) ;
#353=ORIENTED_EDGE('',*,*,#309,.T.) ;
#354=ORIENTED_EDGE('',*,*,#333,.F.) ;
#355=ORIENTED_EDGE('',*,*,#276,.F.) ;
#378=ORIENTED_EDGE('',*,*,#364,.T.) ;
#379=ORIENTED_EDGE('',*,*,#210,.T.) ;
#380=ORIENTED_EDGE('',*,*,#371,.F.) ;
#381=ORIENTED_EDGE('',*,*,#376,.F.) ;
#390=ORIENTED_EDGE('',*,*,#371,.T.) ;
#391=ORIENTED_EDGE('',*,*,#215,.T.) ;
#392=ORIENTED_EDGE('',*,*,#364,.F.) ;
#393=ORIENTED_EDGE('',*,*,#388,.F.) ;
#416=ORIENTED_EDGE('',*,*,#409,.T.) ;
#417=ORIENTED_EDGE('',*,*,#414,.T.) ;
#420=ORIENTED_EDGE('',*,*,#167,.F.) ;
#421=ORIENTED_EDGE('',*,*,#189,.F.) ;
#440=ORIENTED_EDGE('',*,*,#433,.T.) ;
#441=ORIENTED_EDGE('',*,*,#388,.T.) ;
#442=ORIENTED_EDGE('',*,*,#438,.F.) ;
#443=ORIENTED_EDGE('',*,*,#409,.F.) ;
#452=ORIENTED_EDGE('',*,*,#438,.T.) ;
#453=ORIENTED_EDGE('',*,*,#376,.T.) ;
#454=ORIENTED_EDGE('',*,*,#433,.F.) ;
#455=ORIENTED_EDGE('',*,*,#414,.F.) ;
#496=ORIENTED_EDGE('',*,*,#475,.F.) ;
#497=ORIENTED_EDGE('',*,*,#482,.T.) ;
#498=ORIENTED_EDGE('',*,*,#489,.T.) ;
#499=ORIENTED_EDGE('',*,*,#494,.F.) ;
#527=ORIENTED_EDGE('',*,*,#489,.F.) ;
#528=ORIENTED_EDGE('',*,*,#513,.T.) ;
#529=ORIENTED_EDGE('',*,*,#520,.T.) ;
#530=ORIENTED_EDGE('',*,*,#525,.F.) ;
#558=ORIENTED_EDGE('',*,*,#520,.F.) ;
#559=ORIENTED_EDGE('',*,*,#544,.T.) ;
#560=ORIENTED_EDGE('',*,*,#551,.T.) ;
#561=ORIENTED_EDGE('',*,*,#556,.F.) ;
#580=ORIENTED_EDGE('',*,*,#551,.F.) ;
#581=ORIENTED_EDGE('',*,*,#573,.T.) ;
#582=ORIENTED_EDGE('',*,*,#475,.T.) ;
#583=ORIENTED_EDGE('',*,*,#578,.F.) ;
#592=ORIENTED_EDGE('',*,*,#573,.F.) ;
#593=ORIENTED_EDGE('',*,*,#544,.F.) ;
#594=ORIENTED_EDGE('',*,*,#513,.F.) ;
#595=ORIENTED_EDGE('',*,*,#482,.F.) ;
#604=ORIENTED_EDGE('',*,*,#494,.T.) ;
#605=ORIENTED_EDGE('',*,*,#525,.T.) ;
#606=ORIENTED_EDGE('',*,*,#556,.T.) ;
#607=ORIENTED_EDGE('',*,*,#578,.T.) ;
#223=FACE_BOUND('',#220,.T.) ;
#251=FACE_BOUND('',#248,.T.) ;
#322=FACE_BOUND('',#319,.T.) ;
#422=FACE_BOUND('',#419,.T.) ;
#82=CLOSED_SHELL('Closed Shell',(#122,#139,#179,#196,#224,#252,#283,#295,#323,#345,#357,#383,#395,#423,#445,#457)) ;
#461=CLOSED_SHELL('Closed Shell',(#501,#532,#563,#585,#597,#609)) ;
#53=VECTOR('Line Direction',#52,1.) ;
#65=VECTOR('Line Direction',#64,1.) ;
#74=VECTOR('Line Direction',#73,1.) ;
#99=VECTOR('Line Direction',#98,1.) ;
#113=VECTOR('Line Direction',#112,1.) ;
#156=VECTOR('Line Direction',#155,1.) ;
#170=VECTOR('Line Direction',#169,1.) ;
#260=VECTOR('Line Direction',#259,1.) ;
#267=VECTOR('Line Direction',#266,1.) ;
#331=VECTOR('Line Direction',#330,1.) ;
#336=VECTOR('Line Direction',#335,1.) ;
#360=VECTOR('Line Direction',#359,1.) ;
#367=VECTOR('Line Direction',#366,1.) ;
#431=VECTOR('Line Direction',#430,1.) ;
#436=VECTOR('Line Direction',#435,1.) ;
#469=VECTOR('Line Direction',#468,1.) ;
#485=VECTOR('Line Direction',#484,1.) ;
#509=VECTOR('Line Direction',#508,1.) ;
#516=VECTOR('Line Direction',#515,1.) ;
#523=VECTOR('Line Direction',#522,1.) ;
#547=VECTOR('Line Direction',#546,1.) ;
#571=VECTOR('Line Direction',#570,1.) ;
#576=VECTOR('Line Direction',#575,1.) ;
#459=ADVANCED_BREP_SHAPE_REPRESENTATION('NONE',(#458,#610),#46) ;
#49=SHAPE_REPRESENTATION(' ',(#48),#46) ;
#122=ADVANCED_FACE('PartBody',(#121),#87,.T.) ;
#139=ADVANCED_FACE('PartBody',(#138),#87,.T.) ;
#179=ADVANCED_FACE('PartBody',(#178),#144,.F.) ;
#196=ADVANCED_FACE('PartBody',(#195),#144,.F.) ;
#224=ADVANCED_FACE('PartBody',(#219,#223),#201,.F.) ;
#252=ADVANCED_FACE('PartBody',(#247,#251),#229,.T.) ;
#283=ADVANCED_FACE('PartBody',(#282),#257,.T.) ;
#295=ADVANCED_FACE('PartBody',(#294),#257,.T.) ;
#323=ADVANCED_FACE('PartBody',(#318,#322),#300,.F.) ;
#345=ADVANCED_FACE('PartBody',(#344),#328,.T.) ;
#357=ADVANCED_FACE('PartBody',(#356),#350,.T.) ;
#383=ADVANCED_FACE('PartBody',(#382),#257,.T.) ;
#395=ADVANCED_FACE('PartBody',(#394),#257,.T.) ;
#423=ADVANCED_FACE('PartBody',(#418,#422),#400,.T.) ;
#445=ADVANCED_FACE('PartBody',(#444),#428,.T.) ;
#457=ADVANCED_FACE('PartBody',(#456),#450,.T.) ;
#501=ADVANCED_FACE('Body.12',(#500),#466,.T.) ;
#532=ADVANCED_FACE('Body.12',(#531),#506,.F.) ;
#563=ADVANCED_FACE('Body.12',(#562),#537,.F.) ;
#585=ADVANCED_FACE('Body.12',(#584),#568,.F.) ;
#597=ADVANCED_FACE('Body.12',(#596),#590,.F.) ;
#609=ADVANCED_FACE('Body.12',(#608),#602,.T.) ;
#4=APPLICATION_PROTOCOL_DEFINITION('international standard','config_control_design',1994,#1) ;
#32=APPROVAL_DATE_TIME(#13,#21) ;
#458=MANIFOLD_SOLID_BREP('PartBody',#82) ;
#610=MANIFOLD_SOLID_BREP('Body.12',#461) ;
#11=CALENDAR_DATE(2017,17,3) ;
#30=CC_DESIGN_APPROVAL(#21,(#16,#6,#14)) ;
#18=CC_DESIGN_DATE_AND_TIME_ASSIGNMENT(#13,#17,(#16)) ;
#29=CC_DESIGN_DATE_AND_TIME_ASSIGNMENT(#13,#28,(#14)) ;
#17=DATE_TIME_ROLE('classification_date') ;
#28=DATE_TIME_ROLE('creation_date') ;
#27=CC_DESIGN_PERSON_AND_ORGANIZATION_ASSIGNMENT(#25,#26,(#16)) ;
#33=CC_DESIGN_PERSON_AND_ORGANIZATION_ASSIGNMENT(#25,#34,(#6)) ;
#35=CC_DESIGN_PERSON_AND_ORGANIZATION_ASSIGNMENT(#25,#36,(#6,#14)) ;
#37=CC_DESIGN_PERSON_AND_ORGANIZATION_ASSIGNMENT(#25,#38,(#5)) ;
#26=PERSON_AND_ORGANIZATION_ROLE('classification_officer') ;
#34=PERSON_AND_ORGANIZATION_ROLE('design_supplier') ;
#36=PERSON_AND_ORGANIZATION_ROLE('creator') ;
#38=PERSON_AND_ORGANIZATION_ROLE('design_owner') ;
#39=CC_DESIGN_SECURITY_CLASSIFICATION(#16,(#6)) ;
#91=CIRCLE('generated circle',#90,33.3) ;
#107=CIRCLE('generated circle',#106,33.3) ;
#126=CIRCLE('generated circle',#125,33.3) ;
#131=CIRCLE('generated circle',#130,33.3) ;
#148=CIRCLE('generated circle',#147,30.) ;
#164=CIRCLE('generated circle',#163,30.) ;
#183=CIRCLE('generated circle',#182,30.) ;
#188=CIRCLE('generated circle',#187,30.) ;
#205=CIRCLE('generated circle',#204,34.) ;
#214=CIRCLE('generated circle',#213,34.) ;
#233=CIRCLE('generated circle',#232,34.) ;
#242=CIRCLE('generated circle',#241,34.) ;
#275=CIRCLE('generated circle',#274,34.) ;
#287=CIRCLE('generated circle',#286,34.) ;
#304=CIRCLE('generated circle',#303,33.) ;
#313=CIRCLE('generated circle',#312,33.) ;
#375=CIRCLE('generated circle',#374,34.) ;
#387=CIRCLE('generated circle',#386,34.) ;
#404=CIRCLE('generated circle',#403,33.) ;
#413=CIRCLE('generated circle',#412,33.) ;
#479=CIRCLE('generated circle',#478,35.2) ;
#493=CIRCLE('generated circle',#492,35.2) ;
#541=CIRCLE('generated circle',#540,33.3) ;
#555=CIRCLE('generated circle',#554,33.3) ;
#328=CONICAL_SURFACE('Cone',#327,0.,0.785398163397) ;
#350=CONICAL_SURFACE('Cone',#349,0.,0.785398163397) ;
#428=CONICAL_SURFACE('Cone',#427,0.,0.785398163397) ;
#450=CONICAL_SURFACE('Cone',#449,0.,0.785398163397) ;
#62=SHAPE_REPRESENTATION_RELATIONSHIP(' ',' ',#49,#60) ;
#460=SHAPE_REPRESENTATION_RELATIONSHIP(' ',' ',#49,#459) ;
#87=CYLINDRICAL_SURFACE('generated cylinder',#86,33.3) ;
#144=CYLINDRICAL_SURFACE('generated cylinder',#143,30.) ;
#257=CYLINDRICAL_SURFACE('generated cylinder',#256,34.) ;
#466=CYLINDRICAL_SURFACE('generated cylinder',#465,35.2) ;
#537=CYLINDRICAL_SURFACE('generated cylinder',#536,33.3) ;
#3=DESIGN_CONTEXT(' ',#1,'design') ;
#96=EDGE_CURVE('',#93,#95,#91,.T.) ;
#103=EDGE_CURVE('',#93,#102,#100,.F.) ;
#110=EDGE_CURVE('',#102,#109,#107,.T.) ;
#115=EDGE_CURVE('',#95,#109,#114,.F.) ;
#127=EDGE_CURVE('',#95,#93,#126,.T.) ;
#132=EDGE_CURVE('',#109,#102,#131,.T.) ;
#153=EDGE_CURVE('',#150,#152,#148,.T.) ;
#160=EDGE_CURVE('',#150,#159,#157,.T.) ;
#167=EDGE_CURVE('',#159,#166,#164,.T.) ;
#172=EDGE_CURVE('',#152,#166,#171,.T.) ;
#184=EDGE_CURVE('',#152,#150,#183,.T.) ;
#189=EDGE_CURVE('',#166,#159,#188,.T.) ;
#210=EDGE_CURVE('',#207,#209,#205,.T.) ;
#215=EDGE_CURVE('',#209,#207,#214,.T.) ;
#238=EDGE_CURVE('',#235,#237,#233,.T.) ;
#243=EDGE_CURVE('',#237,#235,#242,.T.) ;
#264=EDGE_CURVE('',#235,#263,#261,.F.) ;
#271=EDGE_CURVE('',#237,#270,#268,.F.) ;
#276=EDGE_CURVE('',#270,#263,#275,.T.) ;
#288=EDGE_CURVE('',#263,#270,#287,.T.) ;
#309=EDGE_CURVE('',#306,#308,#304,.T.) ;
#314=EDGE_CURVE('',#308,#306,#313,.T.) ;
#333=EDGE_CURVE('',#263,#308,#332,.F.) ;
#338=EDGE_CURVE('',#270,#306,#337,.F.) ;
#364=EDGE_CURVE('',#363,#207,#361,.F.) ;
#371=EDGE_CURVE('',#370,#209,#368,.F.) ;
#376=EDGE_CURVE('',#363,#370,#375,.T.) ;
#388=EDGE_CURVE('',#370,#363,#387,.T.) ;
#409=EDGE_CURVE('',#406,#408,#404,.T.) ;
#414=EDGE_CURVE('',#408,#406,#413,.T.) ;
#433=EDGE_CURVE('',#406,#370,#432,.T.) ;
#438=EDGE_CURVE('',#408,#363,#437,.T.) ;
#475=EDGE_CURVE('',#472,#474,#470,.T.) ;
#482=EDGE_CURVE('',#472,#481,#479,.T.) ;
#489=EDGE_CURVE('',#481,#488,#486,.T.) ;
#494=EDGE_CURVE('',#474,#488,#493,.T.) ;
#513=EDGE_CURVE('',#481,#512,#510,.F.) ;
#520=EDGE_CURVE('',#512,#519,#517,.T.) ;
#525=EDGE_CURVE('',#488,#519,#524,.F.) ;
#544=EDGE_CURVE('',#512,#543,#541,.F.) ;
#551=EDGE_CURVE('',#543,#550,#548,.T.) ;
#556=EDGE_CURVE('',#519,#550,#555,.F.) ;
#573=EDGE_CURVE('',#543,#472,#572,.F.) ;
#578=EDGE_CURVE('',#550,#474,#577,.F.) ;
#116=EDGE_LOOP('',(#117,#118,#119,#120)) ;
#133=EDGE_LOOP('',(#134,#135,#136,#137)) ;
#173=EDGE_LOOP('',(#174,#175,#176,#177)) ;
#190=EDGE_LOOP('',(#191,#192,#193,#194)) ;
#216=EDGE_LOOP('',(#217,#218)) ;
#220=EDGE_LOOP('',(#221,#222)) ;
#244=EDGE_LOOP('',(#245,#246)) ;
#248=EDGE_LOOP('',(#249,#250)) ;
#277=EDGE_LOOP('',(#278,#279,#280,#281)) ;
#289=EDGE_LOOP('',(#290,#291,#292,#293)) ;
#315=EDGE_LOOP('',(#316,#317)) ;
#319=EDGE_LOOP('',(#320,#321)) ;
#339=EDGE_LOOP('',(#340,#341,#342,#343)) ;
#351=EDGE_LOOP('',(#352,#353,#354,#355)) ;
#377=EDGE_LOOP('',(#378,#379,#380,#381)) ;
#389=EDGE_LOOP('',(#390,#391,#392,#393)) ;
#415=EDGE_LOOP('',(#416,#417)) ;
#419=EDGE_LOOP('',(#420,#421)) ;
#439=EDGE_LOOP('',(#440,#441,#442,#443)) ;
#451=EDGE_LOOP('',(#452,#453,#454,#455)) ;
#495=EDGE_LOOP('',(#496,#497,#498,#499)) ;
#526=EDGE_LOOP('',(#527,#528,#529,#530)) ;
#557=EDGE_LOOP('',(#558,#559,#560,#561)) ;
#579=EDGE_LOOP('',(#580,#581,#582,#583)) ;
#591=EDGE_LOOP('',(#592,#593,#594,#595)) ;
#603=EDGE_LOOP('',(#604,#605,#606,#607)) ;
#121=FACE_OUTER_BOUND('',#116,.T.) ;
#138=FACE_OUTER_BOUND('',#133,.T.) ;
#178=FACE_OUTER_BOUND('',#173,.T.) ;
#195=FACE_OUTER_BOUND('',#190,.T.) ;
#219=FACE_OUTER_BOUND('',#216,.T.) ;
#247=FACE_OUTER_BOUND('',#244,.T.) ;
#282=FACE_OUTER_BOUND('',#277,.T.) ;
#294=FACE_OUTER_BOUND('',#289,.T.) ;
#318=FACE_OUTER_BOUND('',#315,.T.) ;
#344=FACE_OUTER_BOUND('',#339,.T.) ;
#356=FACE_OUTER_BOUND('',#351,.T.) ;
#382=FACE_OUTER_BOUND('',#377,.T.) ;
#394=FACE_OUTER_BOUND('',#389,.T.) ;
#418=FACE_OUTER_BOUND('',#415,.T.) ;
#444=FACE_OUTER_BOUND('',#439,.T.) ;
#456=FACE_OUTER_BOUND('',#451,.T.) ;
#500=FACE_OUTER_BOUND('',#495,.T.) ;
#531=FACE_OUTER_BOUND('',#526,.T.) ;
#562=FACE_OUTER_BOUND('',#557,.T.) ;
#584=FACE_OUTER_BOUND('',#579,.T.) ;
#596=FACE_OUTER_BOUND('',#591,.T.) ;
#608=FACE_OUTER_BOUND('',#603,.T.) ;
#61=GEOMETRIC_SET('NONE',(#59,#71,#80,#81)) ;
#60=GEOMETRICALLY_BOUNDED_SURFACE_SHAPE_REPRESENTATION('NONE',(#61),#46) ;
#45=UNCERTAINTY_MEASURE_WITH_UNIT(LENGTH_MEASURE(0.005),#41,'distance_accuracy_value','CONFUSED CURVE UNCERTAINTY') ;
#54=LINE('Line',#51,#53) ;
#66=LINE('Line',#63,#65) ;
#75=LINE('Line',#72,#74) ;
#100=LINE('Line',#97,#99) ;
#114=LINE('Line',#111,#113) ;
#157=LINE('Line',#154,#156) ;
#171=LINE('Line',#168,#170) ;
#261=LINE('Line',#258,#260) ;
#268=LINE('Line',#265,#267) ;
#332=LINE('Line',#329,#331) ;
#337=LINE('Line',#334,#336) ;
#361=LINE('Line',#358,#360) ;
#368=LINE('Line',#365,#367) ;
#432=LINE('Line',#429,#431) ;
#437=LINE('Line',#434,#436) ;
#470=LINE('Line',#467,#469) ;
#486=LINE('Line',#483,#485) ;
#510=LINE('Line',#507,#509) ;
#517=LINE('Line',#514,#516) ;
#524=LINE('Line',#521,#523) ;
#548=LINE('Line',#545,#547) ;
#572=LINE('Line',#569,#571) ;
#577=LINE('Line',#574,#576) ;
#2=MECHANICAL_CONTEXT(' ',#1,'mechanical') ;
#24=PERSONAL_ADDRESS(' ',' ',' ',' ',' ',' ',' ',' ',' ',' ',' ',' ',(#22),' ') ;
#201=PLANE('Plane',#200) ;
#229=PLANE('Plane',#228) ;
#300=PLANE('Plane',#299) ;
#400=PLANE('Plane',#399) ;
#506=PLANE('Plane',#505) ;
#568=PLANE('Plane',#567) ;
#590=PLANE('Plane',#589) ;
#602=PLANE('Plane',#601) ;
#43=PLANE_ANGLE_MEASURE_WITH_UNIT(PLANE_ANGLE_MEASURE(0.0174532925199),#42) ;
#7=PRODUCT_CATEGORY('part',$) ;
#9=PRODUCT_CATEGORY_RELATIONSHIP(' ',' ',#7,#8) ;
#6=PRODUCT_DEFINITION_FORMATION_WITH_SPECIFIED_SOURCE('',' ',#5,.NOT_KNOWN.) ;
#8=PRODUCT_RELATED_PRODUCT_CATEGORY('detail',$,(#5)) ;
#50=SHAPE_DEFINITION_REPRESENTATION(#40,#49) ;
#57=TRIMMED_CURVE('',#54,(#55),(#56),.T.,.CARTESIAN.) ;
#69=TRIMMED_CURVE('',#66,(#67),(#68),.T.,.CARTESIAN.) ;
#78=TRIMMED_CURVE('',#75,(#76),(#77),.T.,.CARTESIAN.) ;
#93=VERTEX_POINT('',#92) ;
#95=VERTEX_POINT('',#94) ;
#102=VERTEX_POINT('',#101) ;
#109=VERTEX_POINT('',#108) ;
#150=VERTEX_POINT('',#149) ;
#152=VERTEX_POINT('',#151) ;
#159=VERTEX_POINT('',#158) ;
#166=VERTEX_POINT('',#165) ;
#207=VERTEX_POINT('',#206) ;
#209=VERTEX_POINT('',#208) ;
#235=VERTEX_POINT('',#234) ;
#237=VERTEX_POINT('',#236) ;
#263=VERTEX_POINT('',#262) ;
#270=VERTEX_POINT('',#269) ;
#306=VERTEX_POINT('',#305) ;
#308=VERTEX_POINT('',#307) ;
#363=VERTEX_POINT('',#362) ;
#370=VERTEX_POINT('',#369) ;
#406=VERTEX_POINT('',#405) ;
#408=VERTEX_POINT('',#407) ;
#472=VERTEX_POINT('',#471) ;
#474=VERTEX_POINT('',#473) ;
#481=VERTEX_POINT('',#480) ;
#488=VERTEX_POINT('',#487) ;
#512=VERTEX_POINT('',#511) ;
#519=VERTEX_POINT('',#518) ;
#543=VERTEX_POINT('',#542) ;
#550=VERTEX_POINT('',#549) ;
#41=(LENGTH_UNIT()NAMED_UNIT(*)SI_UNIT(.MILLI.,.METRE.)) ;
#42=(NAMED_UNIT(*)PLANE_ANGLE_UNIT()SI_UNIT($,.RADIAN.)) ;
#44=(NAMED_UNIT(*)SI_UNIT($,.STERADIAN.)SOLID_ANGLE_UNIT()) ;
#46=(GEOMETRIC_REPRESENTATION_CONTEXT(3)GLOBAL_UNCERTAINTY_ASSIGNED_CONTEXT((#45))GLOBAL_UNIT_ASSIGNED_CONTEXT((#41,#42,#44))REPRESENTATION_CONTEXT(' ',' ')) ;
ENDSEC;
END-ISO-10303-21;
